  0
SECTION
  2
HEADER
  9
$MEASUREMENT
  70
  1
  9
$INSUNITS
  70
  4
  0
ENDSEC
  0
SECTION
  2
TABLES
  0
TABLE
  2
LTYPE
 70
     1
  0
LTYPE
  2
CONTINUOUS
 70
    64
  3
Ausgezogene Linie
 72
    65
 73
     0
 40
0.0
  0
ENDTAB
  0
TABLE
  2
LAYER
 70
     3
  0
LAYER
  2
Contour
 70
    64
 62
     7
  6
CONTINUOUS
  0
LAYER
  2
Engraving
 70
    64
 62
     7
  6
CONTINUOUS
  0
LAYER
  2
Reference_points
 70
    64
 62
     1
  6
CONTINUOUS
  0
ENDTAB
  0
TABLE
  2
STYLE
 70
     1
  0
STYLE
  2
TXT
 70
    64
 40
0.0
 41
1.0
 50
0.0
 71
     0
 42
3.500000
  3
TXT
  0
ENDTAB
  0
ENDSEC
  0
SECTION
  2
BLOCKS
  0
ENDSEC
  0
SECTION
  2
ENTITIES
  0
LINE
  8
Contour
 62
   7
 39
0.100
  6
CONTINUOUS
 10
157.00000
 20
289.00000
 30
 0
 11
3.00000
 21
289.00000
  0
ARC
  8
Contour
 62
   7
 39
0.100
  6
CONTINUOUS
 10
3.00000
 20
286.00000
 30
 0
 40
3.00000
 50
90.00000
 51
180.00000
  0
LINE
  8
Contour
 62
   7
 39
0.100
  6
CONTINUOUS
 10
0.00000
 20
286.00000
 30
 0
 11
0.00000
 21
3.00000
  0
ARC
  8
Contour
 62
   7
 39
0.100
  6
CONTINUOUS
 10
3.00000
 20
3.00000
 30
 0
 40
3.00000
 50
180.00000
 51
270.00000
  0
LINE
  8
Contour
 62
   7
 39
0.100
  6
CONTINUOUS
 10
3.00000
 20
0.00000
 30
 0
 11
157.00000
 21
0.00000
  0
ARC
  8
Contour
 62
   7
 39
0.100
  6
CONTINUOUS
 10
157.00000
 20
3.00000
 30
 0
 40
3.00000
 50
-90.00000
 51
0.00000
  0
LINE
  8
Contour
 62
   7
 39
0.100
  6
CONTINUOUS
 10
160.00000
 20
3.00000
 30
 0
 11
160.00000
 21
286.00000
  0
ARC
  8
Contour
 62
   7
 39
0.100
  6
CONTINUOUS
 10
157.00000
 20
286.00000
 30
 0
 40
3.00000
 50
0.00000
 51
90.00000
  0
CIRCLE
  8
Contour
 62
   7
 39
0.100
  6
CONTINUOUS
 10
40.00000
 20
7.00000
 30
 0
 40
1.75000
  0
CIRCLE
  8
Contour
 62
   7
 39
0.100
  6
CONTINUOUS
 10
80.00000
 20
7.00000
 30
 0
 40
1.75000
  0
CIRCLE
  8
Contour
 62
   7
 39
0.100
  6
CONTINUOUS
 10
120.00000
 20
7.00000
 30
 0
 40
1.75000
  0
LINE
  8
Contour
 62
   7
 39
0.100
  6
CONTINUOUS
 10
47.50000
 20
73.00000
 30
 0
 11
47.50000
 21
72.00000
  0
ARC
  8
Contour
 62
   7
 39
0.100
  6
CONTINUOUS
 10
46.50000
 20
72.00000
 30
 0
 40
1.00000
 50
270.00000
 51
0.00000
  0
LINE
  8
Contour
 62
   7
 39
0.100
  6
CONTINUOUS
 10
46.50000
 20
71.00000
 30
 0
 11
33.50000
 21
71.00000
  0
ARC
  8
Contour
 62
   7
 39
0.100
  6
CONTINUOUS
 10
33.50000
 20
72.00000
 30
 0
 40
1.00000
 50
180.00000
 51
-90.00000
  0
LINE
  8
Contour
 62
   7
 39
0.100
  6
CONTINUOUS
 10
32.50000
 20
72.00000
 30
 0
 11
32.50000
 21
73.00000
  0
ARC
  8
Contour
 62
   7
 39
0.100
  6
CONTINUOUS
 10
33.50000
 20
73.00000
 30
 0
 40
1.00000
 50
450.00000
 51
180.00000
  0
LINE
  8
Contour
 62
   7
 39
0.100
  6
CONTINUOUS
 10
33.50000
 20
74.00000
 30
 0
 11
46.50000
 21
74.00000
  0
ARC
  8
Contour
 62
   7
 39
0.100
  6
CONTINUOUS
 10
46.50000
 20
73.00000
 30
 0
 40
1.00000
 50
360.00000
 51
90.00000
  0
LINE
  8
Contour
 62
   7
 39
0.100
  6
CONTINUOUS
 10
87.50000
 20
73.00000
 30
 0
 11
87.50000
 21
72.00000
  0
ARC
  8
Contour
 62
   7
 39
0.100
  6
CONTINUOUS
 10
86.50000
 20
72.00000
 30
 0
 40
1.00000
 50
270.00000
 51
0.00000
  0
LINE
  8
Contour
 62
   7
 39
0.100
  6
CONTINUOUS
 10
86.50000
 20
71.00000
 30
 0
 11
73.50000
 21
71.00000
  0
ARC
  8
Contour
 62
   7
 39
0.100
  6
CONTINUOUS
 10
73.50000
 20
72.00000
 30
 0
 40
1.00000
 50
180.00000
 51
-90.00000
  0
LINE
  8
Contour
 62
   7
 39
0.100
  6
CONTINUOUS
 10
72.50000
 20
72.00000
 30
 0
 11
72.50000
 21
73.00000
  0
ARC
  8
Contour
 62
   7
 39
0.100
  6
CONTINUOUS
 10
73.50000
 20
73.00000
 30
 0
 40
1.00000
 50
450.00000
 51
180.00000
  0
LINE
  8
Contour
 62
   7
 39
0.100
  6
CONTINUOUS
 10
73.50000
 20
74.00000
 30
 0
 11
86.50000
 21
74.00000
  0
ARC
  8
Contour
 62
   7
 39
0.100
  6
CONTINUOUS
 10
86.50000
 20
73.00000
 30
 0
 40
1.00000
 50
360.00000
 51
90.00000
  0
LINE
  8
Contour
 62
   7
 39
0.100
  6
CONTINUOUS
 10
47.50000
 20
217.00000
 30
 0
 11
47.50000
 21
216.00000
  0
ARC
  8
Contour
 62
   7
 39
0.100
  6
CONTINUOUS
 10
46.50000
 20
216.00000
 30
 0
 40
1.00000
 50
270.00000
 51
0.00000
  0
LINE
  8
Contour
 62
   7
 39
0.100
  6
CONTINUOUS
 10
46.50000
 20
215.00000
 30
 0
 11
33.50000
 21
215.00000
  0
ARC
  8
Contour
 62
   7
 39
0.100
  6
CONTINUOUS
 10
33.50000
 20
216.00000
 30
 0
 40
1.00000
 50
180.00000
 51
-90.00000
  0
LINE
  8
Contour
 62
   7
 39
0.100
  6
CONTINUOUS
 10
32.50000
 20
216.00000
 30
 0
 11
32.50000
 21
217.00000
  0
ARC
  8
Contour
 62
   7
 39
0.100
  6
CONTINUOUS
 10
33.50000
 20
217.00000
 30
 0
 40
1.00000
 50
450.00000
 51
180.00000
  0
LINE
  8
Contour
 62
   7
 39
0.100
  6
CONTINUOUS
 10
33.50000
 20
218.00000
 30
 0
 11
46.50000
 21
218.00000
  0
ARC
  8
Contour
 62
   7
 39
0.100
  6
CONTINUOUS
 10
46.50000
 20
217.00000
 30
 0
 40
1.00000
 50
360.00000
 51
90.00000
  0
LINE
  8
Contour
 62
   7
 39
0.100
  6
CONTINUOUS
 10
87.50000
 20
217.00000
 30
 0
 11
87.50000
 21
216.00000
  0
ARC
  8
Contour
 62
   7
 39
0.100
  6
CONTINUOUS
 10
86.50000
 20
216.00000
 30
 0
 40
1.00000
 50
270.00000
 51
0.00000
  0
LINE
  8
Contour
 62
   7
 39
0.100
  6
CONTINUOUS
 10
86.50000
 20
215.00000
 30
 0
 11
73.50000
 21
215.00000
  0
ARC
  8
Contour
 62
   7
 39
0.100
  6
CONTINUOUS
 10
73.50000
 20
216.00000
 30
 0
 40
1.00000
 50
180.00000
 51
-90.00000
  0
LINE
  8
Contour
 62
   7
 39
0.100
  6
CONTINUOUS
 10
72.50000
 20
216.00000
 30
 0
 11
72.50000
 21
217.00000
  0
ARC
  8
Contour
 62
   7
 39
0.100
  6
CONTINUOUS
 10
73.50000
 20
217.00000
 30
 0
 40
1.00000
 50
450.00000
 51
180.00000
  0
LINE
  8
Contour
 62
   7
 39
0.100
  6
CONTINUOUS
 10
73.50000
 20
218.00000
 30
 0
 11
86.50000
 21
218.00000
  0
ARC
  8
Contour
 62
   7
 39
0.100
  6
CONTINUOUS
 10
86.50000
 20
217.00000
 30
 0
 40
1.00000
 50
360.00000
 51
90.00000
  0
CIRCLE
  8
Contour
 62
   7
 39
0.100
  6
CONTINUOUS
 10
40.00000
 20
282.00000
 30
 0
 40
1.75000
  0
CIRCLE
  8
Contour
 62
   7
 39
0.100
  6
CONTINUOUS
 10
80.00000
 20
282.00000
 30
 0
 40
1.75000
  0
CIRCLE
  8
Contour
 62
   7
 39
0.100
  6
CONTINUOUS
 10
120.00000
 20
282.00000
 30
 0
 40
1.75000
  0
CIRCLE
  8
Contour
 62
   7
 39
0.100
  6
CONTINUOUS
 10
8.00000
 20
246.50000
 30
 0
 40
1.75000
  0
CIRCLE
  8
Contour
 62
   7
 39
0.100
  6
CONTINUOUS
 10
8.00000
 20
42.50000
 30
 0
 40
1.75000
  0
CIRCLE
  8
Contour
 62
   7
 39
0.100
  6
CONTINUOUS
 10
152.00000
 20
42.50000
 30
 0
 40
1.75000
  0
CIRCLE
  8
Contour
 62
   7
 39
0.100
  6
CONTINUOUS
 10
152.00000
 20
246.50000
 30
 0
 40
1.75000
  0
LINE
  8
Contour
 62
   7
 39
0.100
  6
CONTINUOUS
 10
127.50000
 20
73.00000
 30
 0
 11
127.50000
 21
72.00000
  0
ARC
  8
Contour
 62
   7
 39
0.100
  6
CONTINUOUS
 10
126.50000
 20
72.00000
 30
 0
 40
1.00000
 50
270.00000
 51
0.00000
  0
LINE
  8
Contour
 62
   7
 39
0.100
  6
CONTINUOUS
 10
126.50000
 20
71.00000
 30
 0
 11
113.50000
 21
71.00000
  0
ARC
  8
Contour
 62
   7
 39
0.100
  6
CONTINUOUS
 10
113.50000
 20
72.00000
 30
 0
 40
1.00000
 50
180.00000
 51
-90.00000
  0
LINE
  8
Contour
 62
   7
 39
0.100
  6
CONTINUOUS
 10
112.50000
 20
72.00000
 30
 0
 11
112.50000
 21
73.00000
  0
ARC
  8
Contour
 62
   7
 39
0.100
  6
CONTINUOUS
 10
113.50000
 20
73.00000
 30
 0
 40
1.00000
 50
450.00000
 51
180.00000
  0
LINE
  8
Contour
 62
   7
 39
0.100
  6
CONTINUOUS
 10
113.50000
 20
74.00000
 30
 0
 11
126.50000
 21
74.00000
  0
ARC
  8
Contour
 62
   7
 39
0.100
  6
CONTINUOUS
 10
126.50000
 20
73.00000
 30
 0
 40
1.00000
 50
360.00000
 51
90.00000
  0
LINE
  8
Contour
 62
   7
 39
0.100
  6
CONTINUOUS
 10
127.50000
 20
217.00000
 30
 0
 11
127.50000
 21
216.00000
  0
ARC
  8
Contour
 62
   7
 39
0.100
  6
CONTINUOUS
 10
126.50000
 20
216.00000
 30
 0
 40
1.00000
 50
270.00000
 51
0.00000
  0
LINE
  8
Contour
 62
   7
 39
0.100
  6
CONTINUOUS
 10
126.50000
 20
215.00000
 30
 0
 11
113.50000
 21
215.00000
  0
ARC
  8
Contour
 62
   7
 39
0.100
  6
CONTINUOUS
 10
113.50000
 20
216.00000
 30
 0
 40
1.00000
 50
180.00000
 51
-90.00000
  0
LINE
  8
Contour
 62
   7
 39
0.100
  6
CONTINUOUS
 10
112.50000
 20
216.00000
 30
 0
 11
112.50000
 21
217.00000
  0
ARC
  8
Contour
 62
   7
 39
0.100
  6
CONTINUOUS
 10
113.50000
 20
217.00000
 30
 0
 40
1.00000
 50
450.00000
 51
180.00000
  0
LINE
  8
Contour
 62
   7
 39
0.100
  6
CONTINUOUS
 10
113.50000
 20
218.00000
 30
 0
 11
126.50000
 21
218.00000
  0
ARC
  8
Contour
 62
   7
 39
0.100
  6
CONTINUOUS
 10
126.50000
 20
217.00000
 30
 0
 40
1.00000
 50
360.00000
 51
90.00000
  0
ENDSEC
  0
EOF
